0
SECTION
2
HEADER
9
$INSUNITS
70
4
9
$ACADVER
1
AC1014
9
$HANDSEED
5
FFFF
0
ENDSEC
0
SECTION
2
TABLES
0
TABLE
2
VPORT
5
8
100
AcDbSymbolTable
0
ENDTAB
0
TABLE
2
LTYPE
5
5
100
AcDbSymbolTable
0
LTYPE
5
14
100
AcDbSymbolTableRecord
100
AcDbLinetypeTableRecord
2
BYBLOCK
70
0
0
LTYPE
5
15
100
AcDbSymbolTableRecord
100
AcDbLinetypeTableRecord
2
BYLAYER
70
0
0
ENDTAB
0
TABLE
2
LAYER
5
2
100
AcDbSymbolTable
70
2
0
LAYER
5
50
100
AcDbSymbolTableRecord
100
AcDbLayerTableRecord
2
0
70
0
6
CONTINUOUS
0
ENDTAB
0
TABLE
2
STYLE
5
3
100
AcDbSymbolTable
70
1
0
STYLE
5
11
100
AcDbSymbolTableRecord
100
AcDbTextStyleTableRecord
2
STANDARD
70
0
0
ENDTAB
0
TABLE
2
VIEW
5
6
100
AcDbSymbolTable
70
0
0
ENDTAB
0
TABLE
2
UCS
5
7
100
AcDbSymbolTable
70
0
0
ENDTAB
0
TABLE
2
APPID
5
9
100
AcDbSymbolTable
70
2
0
APPID
5
12
100
AcDbSymbolTableRecord
100
AcDbRegAppTableRecord
2
ACAD
70
0
0
ENDTAB
0
TABLE
2
DIMSTYLE
5
A
100
AcDbSymbolTable
70
1
0
ENDTAB
0
TABLE
2
BLOCK_RECORD
5
1
100
AcDbSymbolTable
70
1
0
BLOCK_RECORD
5
1F
100
AcDbSymbolTableRecord
100
AcDbBlockTableRecord
2
*MODEL_SPACE
0
BLOCK_RECORD
5
1B
100
AcDbSymbolTableRecord
100
AcDbBlockTableRecord
2
*PAPER_SPACE
0
ENDTAB
0
ENDSEC
0
SECTION
2
BLOCKS
0
BLOCK
5
20
100
AcDbEntity
100
AcDbBlockBegin
2
*MODEL_SPACE
0
ENDBLK
5
21
100
AcDbEntity
100
AcDbBlockEnd
0
BLOCK
5
1C
100
AcDbEntity
100
AcDbBlockBegin
2
*PAPER_SPACE
0
ENDBLK
5
1D
100
AcDbEntity
100
AcDbBlockEnd
0
ENDSEC
0
SECTION
2
ENTITIES
0
LINE
5
100
100
AcDbEntity
8
0
100
AcDbLine
10
-0.67249744117916066
20
100.67547966726124
30
-8.8817841970012523e-15
11
11.503491709821812
21
100.67547966726124
31
-8.8817841970012523e-15
0
LINE
5
101
100
AcDbEntity
8
0
100
AcDbLine
10
11.503491709821812
20
100.67547966726124
30
-8.8817841970012523e-15
11
11.503491709821812
21
91.364428298547864
31
-8.8817841970012523e-15
0
LINE
5
102
100
AcDbEntity
8
0
100
AcDbLine
10
11.503491709821812
20
91.364428298547864
30
-8.8817841970012523e-15
11
-18.496510674363975
21
91.364428298547864
31
-1.1102230246251565e-14
0
LINE
5
103
100
AcDbEntity
8
0
100
AcDbLine
10
-18.496510674363975
20
91.364428298547864
30
-1.1102230246251565e-14
11
-18.496510674363972
21
106.81462933309376
31
-1.7763568394002505e-14
0
SPLINE
5
104
100
AcDbEntity
8
0
100
AcDbSpline
70
0
71
2
72
6
73
3
74
0
42
0.000000001
43
0.0000000001
44
0.0000000001
40
0
40
0
40
0
40
1
40
1
40
1
10
-18.496510674363972
20
106.81462933309376
30
-1.7763568394002505e-14
10
-18.496510674363972
20
111.11203839071095
30
-1.7763568394002505e-14
10
-17.75981157005489
20
113.38352848775685
30
-1.7763568394002505e-14
0
SPLINE
5
105
100
AcDbEntity
8
0
100
AcDbSpline
70
0
71
2
72
6
73
3
74
0
42
0.000000001
43
0.0000000001
44
0.0000000001
40
0
40
0
40
0
40
1
40
1
40
1
10
-17.75981157005489
20
113.38352848775685
30
-1.7763568394002505e-14
10
-17.023112465745815
20
115.65501858480275
30
-8.8817841970012523e-15
10
-15.027887513048054
20
117.04656292684376
30
-1.7763568394002505e-14
0
SPLINE
5
106
100
AcDbEntity
8
0
100
AcDbSpline
70
0
71
2
72
6
73
3
74
0
42
0.000000001
43
0.0000000001
44
0.0000000001
40
0
40
0
40
0
40
1
40
1
40
1
10
-15.027887513048054
20
117.04656292684376
30
-1.7763568394002505e-14
10
-13.032662560350305
20
118.43809773214161
30
-8.8817841970012523e-15
10
-10.167724778062702
20
118.43809773214161
30
-1.7763568394002505e-14
0
SPLINE
5
107
100
AcDbEntity
8
0
100
AcDbSpline
70
0
71
2
72
6
73
3
74
0
42
0.000000001
43
0.0000000001
44
0.0000000001
40
0
40
0
40
0
40
1
40
1
40
1
10
-10.167724778062702
20
118.43809773214161
30
-1.7763568394002505e-14
10
-7.6711341637438535
20
118.43809773214161
30
-1.7763568394002505e-14
10
-5.8600851792162745
20
117.37333943136036
30
-8.8817841970012523e-15
0
SPLINE
5
108
100
AcDbEntity
8
0
100
AcDbSpline
70
0
71
2
72
6
73
3
74
0
42
0.000000001
43
0.0000000001
44
0.0000000001
40
0
40
0
40
0
40
1
40
1
40
1
10
-5.8600851792162745
20
117.37333943136036
30
-8.8817841970012523e-15
10
-4.0490338105028867
20
116.30858113057911
30
-8.8817841970012523e-15
10
-2.923521687394981
20
114.44541622884572
30
-8.8817841970012523e-15
0
SPLINE
5
109
100
AcDbEntity
8
0
100
AcDbSpline
70
0
71
2
72
6
73
3
74
0
42
0.000000001
43
0.0000000001
44
0.0000000001
40
0
40
0
40
0
40
1
40
1
40
1
10
-2.923521687394981
20
114.44541622884572
30
-8.8817841970012523e-15
10
-2.2072884339159771
20
113.257862823084
30
-2.6645352591003757e-14
10
-1.7366167801684229
20
111.18974377401173
30
-8.8817841970012523e-15
0
SPLINE
5
110
100
AcDbEntity
8
0
100
AcDbSpline
70
0
71
2
72
6
73
3
74
0
42
0.000000001
43
0.0000000001
44
0.0000000001
40
0
40
0
40
0
40
1
40
1
40
1
10
-1.7366167801684229
20
111.18974377401173
30
-8.8817841970012523e-15
10
-1.1834546822375147
20
112.84602810628712
30
-8.8817841970012523e-15
10
-0.63061206520259816
20
113.60287358053029
30
-8.8817841970012523e-15
0
SPLINE
5
111
100
AcDbEntity
8
0
100
AcDbSpline
70
0
71
2
72
6
73
3
74
0
42
0.000000001
43
0.0000000001
44
0.0000000001
40
0
40
0
40
0
40
1
40
1
40
1
10
-0.63061206520259816
20
113.60287358053029
30
-8.8817841970012523e-15
10
-0.26194064796627003
20
114.11414791829884
30
-8.8817841970012523e-15
10
0.94654352485477489
20
115.08554150350392
30
-1.7763568394002505e-14
0
SPLINE
5
112
100
AcDbEntity
8
0
100
AcDbSpline
70
0
71
2
72
6
73
3
74
0
42
0.000000001
43
0.0000000001
44
0.0000000001
40
0
40
0
40
0
40
1
40
1
40
1
10
0.94654352485477489
20
115.08554150350392
30
-1.7763568394002505e-14
10
2.1550300818616064
20
116.056935088709
30
-8.8817841970012523e-15
10
2.8105118971997456
20
116.38404537923634
30
-8.8817841970012523e-15
0
LINE
5
113
100
AcDbEntity
8
0
100
AcDbLine
10
2.8105118971997456
20
116.38404537923634
30
-8.8817841970012507e-15
11
11.503491709821816
21
120.87329556234181
31
-8.3266726846886741e-15
0
LINE
5
114
100
AcDbEntity
8
0
100
AcDbLine
10
11.503491709821816
20
120.87329556234181
30
-8.3266726846886741e-15
11
11.503491709821812
21
110.39869000203907
31
-8.8817841970012523e-15
0
LINE
5
115
100
AcDbEntity
8
0
100
AcDbLine
10
11.503491709821812
20
110.39869000203907
30
-8.8817841970012523e-15
11
2.3356869918042324
21
105.44355084188282
31
-8.8817841970012523e-15
0
SPLINE
5
116
100
AcDbEntity
8
0
100
AcDbSpline
70
0
71
2
72
6
73
3
74
0
42
0.000000001
43
0.0000000001
44
0.0000000001
40
0
40
0
40
0
40
1
40
1
40
1
10
2.3356869918042333
20
105.44355084188282
30
-8.8817841970012523e-15
10
0.55533439933597162
20
104.50221707113087
30
-1.7763568394002505e-14
10
0.023272345655560578
20
103.76552273519337
30
-1.7763568394002505e-14
0
SPLINE
5
117
100
AcDbEntity
8
0
100
AcDbSpline
70
0
71
2
72
6
73
3
74
0
42
0.000000001
43
0.0000000001
44
0.0000000001
40
0
40
0
40
0
40
1
40
1
40
1
10
0.023272345655560578
20
103.76552273519337
30
-1.7763568394002505e-14
10
-0.67249744117916066
20
102.76279141195118
30
-8.8817841970012523e-15
10
-0.67249744117916066
20
101.49403263814747
30
-8.8817841970012523e-15
0
LINE
5
118
100
AcDbEntity
8
0
100
AcDbLine
10
-0.67249744117916066
20
101.49403263814749
30
-8.8817841970012507e-15
11
-0.67249744117916066
21
100.67547966726124
31
-8.8817841970012523e-15
0
SPLINE
5
119
100
AcDbEntity
8
0
100
AcDbSpline
70
0
71
2
72
6
73
3
74
0
42
0.000000001
43
0.0000000001
44
0.0000000001
40
0
40
0
40
0
40
1
40
1
40
1
10
3.6567261916333393
20
74.491988914087415
30
-1.7763568394002505e-14
10
2.2969988089734228
20
75.852834479883313
30
-8.8817841970012523e-15
10
-0.19735305488765675
20
75.852834479883313
30
-8.8817841970012523e-15
0
LINE
5
120
100
AcDbEntity
8
0
100
AcDbLine
10
-0.19735305488765661
20
75.852834479883313
30
-8.8817841970012507e-15
11
-18.496510674363972
21
75.852834479883313
31
-7.7715611723760958e-15
0
LINE
5
121
100
AcDbEntity
8
0
100
AcDbLine
10
-18.496510674363972
20
75.852834479883313
30
-7.7715611723760958e-15
11
-18.496510674363972
21
85.10249306447804
31
-1.7763568394002505e-14
0
LINE
5
122
100
AcDbEntity
8
0
100
AcDbLine
10
-18.496510674363972
20
85.10249306447804
30
-1.7763568394002505e-14
11
-0.62293737114131886
21
85.10249306447804
31
-1.6653345369377348e-14
0
SPLINE
5
123
100
AcDbEntity
8
0
100
AcDbSpline
70
0
71
2
72
6
73
3
74
0
42
0.000000001
43
0.0000000001
44
0.0000000001
40
0
40
0
40
0
40
1
40
1
40
1
10
-0.62293737114131886
20
85.10249306447804
30
-1.7763568394002505e-14
10
2.0354440909558447
20
85.10249306447804
30
-8.8817841970012523e-15
10
4.3974211913281636
20
84.27370716817677
30
-1.7763568394002505e-14
0
SPLINE
5
124
100
AcDbEntity
8
0
100
AcDbSpline
70
0
71
2
72
6
73
3
74
0
42
0.000000001
43
0.0000000001
44
0.0000000001
40
0
40
0
40
0
40
1
40
1
40
1
10
4.3974211913281636
20
84.27370716817677
30
-1.7763568394002505e-14
10
6.759395907514687
20
83.444921271875501
30
-8.8817841970012523e-15
10
8.5283997756177143
20
81.674801604822278
30
-1.7763568394002505e-14
0
SPLINE
5
125
100
AcDbEntity
8
0
100
AcDbSpline
70
0
71
2
72
6
73
3
74
0
42
0.000000001
43
0.0000000001
44
0.0000000001
40
0
40
0
40
0
40
1
40
1
40
1
10
8.5283997756177143
20
81.674801604822278
30
-1.7763568394002505e-14
10
10.297403643720738
20
79.904677169397473
30
-8.8817841970012523e-15
10
11.012997935407753
20
77.960612075403333
30
-8.8817841970012523e-15
0
SPLINE
5
126
100
AcDbEntity
8
0
100
AcDbSpline
70
0
71
2
72
6
73
3
74
0
42
0.000000001
43
0.0000000001
44
0.0000000001
40
0
40
0
40
0
40
1
40
1
40
1
10
11.012997935407753
20
77.960612075403333
30
-8.8817841970012523e-15
10
12.015085528486363
20
75.259382026270032
30
-1.7763568394002505e-14
10
12.015085528486363
20
71.473571555688977
30
-1.7763568394002505e-14
0
SPLINE
5
127
100
AcDbEntity
8
0
100
AcDbSpline
70
0
71
2
72
6
73
3
74
0
42
0.000000001
43
0.0000000001
44
0.0000000001
40
0
40
0
40
0
40
1
40
1
40
1
10
12.015085528486363
20
71.473571555688977
30
-1.7763568394002505e-14
10
12.015085528486363
20
69.283940093591809
30
-1.7763568394002505e-14
10
11.708288500898473
20
66.695262687280774
30
-8.8817841970012523e-15
0
SPLINE
5
128
100
AcDbEntity
8
0
100
AcDbSpline
70
0
71
2
72
6
73
3
74
0
42
0.000000001
43
0.0000000001
44
0.0000000001
40
0
40
0
40
0
40
1
40
1
40
1
10
11.708288500898473
20
66.695262687280774
30
-8.8817841970012523e-15
10
11.401491473310582
20
64.106585280969739
30
-8.8817841970012523e-15
10
10.49149067222416
20
62.367159621790051
30
-8.8817841970012523e-15
0
SPLINE
5
129
100
AcDbEntity
8
0
100
AcDbSpline
70
0
71
2
72
6
73
3
74
0
42
0.000000001
43
0.0000000001
44
0.0000000001
40
0
40
0
40
0
40
1
40
1
40
1
10
10.49149067222416
20
62.367159621790051
30
-8.8817841970012523e-15
10
9.5814898711377339
20
60.627729194238782
30
-1.7763568394002505e-14
10
7.9045727950268896
20
59.185029761865735
30
-8.8817841970012523e-15
0
SPLINE
5
130
100
AcDbEntity
8
0
100
AcDbSpline
70
0
71
2
72
6
73
3
74
0
42
0.000000001
43
0.0000000001
44
0.0000000001
40
0
40
0
40
0
40
1
40
1
40
1
10
7.9045727950268896
20
59.185029761865735
30
-8.8817841970012523e-15
10
6.2276557189160542
20
57.742327945306897
30
-8.8817841970012523e-15
10
4.4485810500317768
20
57.210268275812268
30
-8.8817841970012523e-15
0
SPLINE
5
131
100
AcDbEntity
8
0
100
AcDbSpline
70
0
71
2
72
6
73
3
74
0
42
0.000000001
43
0.0000000001
44
0.0000000001
40
0
40
0
40
0
40
1
40
1
40
1
10
4.4485810500317768
20
57.210268275812268
30
-8.8817841970012523e-15
10
1.5855601531201557
20
56.350785987451673
30
-1.7763568394002505e-14
10
-0.62293737114131886
20
56.350785987451673
30
-1.7763568394002505e-14
0
LINE
5
132
100
AcDbEntity
8
0
100
AcDbLine
10
-0.62293737114131864
20
56.350785987451673
30
-1.7763568394002505e-14
11
-18.496510674363972
21
56.350785987451673
31
-1.8873791418627661e-14
0
LINE
5
133
100
AcDbEntity
8
0
100
AcDbLine
10
-18.496510674363972
20
56.350785987451673
30
-1.8873791418627661e-14
11
-18.496510674363972
21
65.600444572046399
31
-1.7763568394002505e-14
0
LINE
5
134
100
AcDbEntity
8
0
100
AcDbLine
10
-18.496510674363972
20
65.600444572046399
30
-1.7763568394002505e-14
11
-0.19735305488765453
21
65.600444572046399
31
-1.8873791418627661e-14
0
SPLINE
5
135
100
AcDbEntity
8
0
100
AcDbSpline
70
0
71
2
72
6
73
3
74
0
42
0.000000001
43
0.0000000001
44
0.0000000001
40
0
40
0
40
0
40
1
40
1
40
1
10
-0.19735305488765675
20
65.600444572046399
30
-8.8817841970012523e-15
10
2.2563889723950536
20
65.600444572046399
30
-8.8817841970012523e-15
10
3.6364200812512637
20
66.961290137842298
30
-8.8817841970012523e-15
0
SPLINE
5
136
100
AcDbEntity
8
0
100
AcDbSpline
70
0
71
2
72
6
73
3
74
0
42
0.000000001
43
0.0000000001
44
0.0000000001
40
0
40
0
40
0
40
1
40
1
40
1
10
3.6364200812512637
20
66.961290137842298
30
-8.8817841970012523e-15
10
5.0164511901074604
20
68.322135703638196
30
-1.7763568394002505e-14
10
5.0164511901074604
20
70.736872451379895
30
-1.7763568394002505e-14
0
SPLINE
5
137
100
AcDbEntity
8
0
100
AcDbSpline
70
0
71
2
72
6
73
3
74
0
42
0.000000001
43
0.0000000001
44
0.0000000001
40
0
40
0
40
0
40
1
40
1
40
1
10
5.0164511901074604
20
70.736872451379895
30
-1.7763568394002505e-14
10
5.0164511901074604
20
73.131143348291516
30
-1.7763568394002505e-14
10
3.6567261916333393
20
74.491988914087415
30
-1.7763568394002505e-14
0
LWPOLYLINE
5
138
100
AcDbEntity
8
0
100
AcDbPolyline
90
8
70
1
43
0.0
10
11.503491709821812
20
45.108458297327161
10
11.503491709821812
20
54.815997378900647
10
-18.496510674363972
20
43.542973296716809
10
-18.496510674363975
20
33.431275384500623
10
11.503491709821812
20
22.155695455148816
10
11.503491709821812
20
31.620864765718579
10
6.5512421828442724
20
33.083071010187268
10
6.5512421828442715
20
43.607563273981214
0
LWPOLYLINE
5
139
100
AcDbEntity
8
0
100
AcDbPolyline
90
19
70
1
43
0.0
10
57.271153504176517
20
154.88091879863737
10
77.06441420567397
20
154.88091879863737
10
77.064414205673984
20
6.0000000000000009
10
64.340414205674151
20
6.0000000000000009
10
64.340414205674136
20
0.50000000000000044
10
44.540414205674139
20
0.50000000000000044
10
44.540414205674153
20
6.0000000000000009
10
9.8999999999998991
20
6.0000000000000009
10
9.8999999999998956
20
0.50000000000000044
10
-9.9000000000001123
20
0.50000000000000044
10
-9.9000000000001123
20
6.0000000000000009
10
-44.540414205673891
20
6.0000000000000009
10
-44.540414205673891
20
0.50000000000000044
10
-64.340414205673881
20
0.50000000000000044
10
-64.340414205673881
20
6.0000000000000009
10
-77.06441420567397
20
5.9999999999999964
10
-77.064414205673941
20
154.88091879863737
10
-57.271153504176553
20
154.88091879863737
10
1.7763568394002505e-14
20
114.77922539304757
0
LINE
5
140
100
AcDbEntity
8
0
100
AcDbLine
10
-12.439210106737022
20
104.74778820760548
30
-8.8817841970012523e-15
11
-12.439210106737022
21
100.67547966726124
31
-8.8817841970012523e-15
0
LINE
5
141
100
AcDbEntity
8
0
100
AcDbLine
10
-12.439210106737022
20
100.67547966726124
30
-8.8817841970012523e-15
11
-6.3409849900072857
21
100.67547966726124
31
-8.8817841970012523e-15
0
LINE
5
142
100
AcDbEntity
8
0
100
AcDbLine
10
-6.3409849900072857
20
100.67547966726124
30
-8.8817841970012523e-15
11
-6.3409849900072874
21
104.58407093770802
31
-1.7763568394002505e-14
0
SPLINE
5
143
100
AcDbEntity
8
0
100
AcDbSpline
70
0
71
2
72
6
73
3
74
0
42
0.000000001
43
0.0000000001
44
0.0000000001
40
0
40
0
40
0
40
1
40
1
40
1
10
-6.3409849900072874
20
104.58407093770802
30
-1.7763568394002505e-14
10
-6.3409849900072874
20
105.21845509298146
30
-1.7763568394002505e-14
10
-6.7502614754504027
20
107.03973461873829
30
-8.8817841970012523e-15
0
SPLINE
5
144
100
AcDbEntity
8
0
100
AcDbSpline
70
0
71
2
72
6
73
3
74
0
42
0.000000001
43
0.0000000001
44
0.0000000001
40
0
40
0
40
0
40
1
40
1
40
1
10
-6.7502614754504027
20
107.03973461873829
30
-8.8817841970012523e-15
10
-6.9344374436205669
20
107.96061207540333
30
-8.8817841970012523e-15
10
-7.6915976303881433
20
108.54383160360157
30
-1.7763568394002505e-14
0
SPLINE
5
145
100
AcDbEntity
8
0
100
AcDbSpline
70
0
71
2
72
6
73
3
74
0
42
0.000000001
43
0.0000000001
44
0.0000000001
40
0
40
0
40
0
40
1
40
1
40
1
10
-7.6915976303881433
20
108.54383160360157
30
-1.7763568394002505e-14
10
-8.4487602013415142
20
109.12705113179982
30
-1.7763568394002505e-14
10
-9.4310256737536236
20
109.12705113179982
30
-8.8817841970012523e-15
0
SPLINE
5
146
100
AcDbEntity
8
0
100
AcDbSpline
70
0
71
2
72
6
73
3
74
0
42
0.000000001
43
0.0000000001
44
0.0000000001
40
0
40
0
40
0
40
1
40
1
40
1
10
-9.4310256737536236
20
109.12705113179982
30
-8.8817841970012523e-15
10
-10.883958031541709
20
109.12705113179982
30
-1.7763568394002505e-14
10
-11.661584069139364
20
108.20617367513478
30
-1.7763568394002505e-14
0
SPLINE
5
147
100
AcDbEntity
8
0
100
AcDbSpline
70
0
71
2
72
6
73
3
74
0
42
0.000000001
43
0.0000000001
44
0.0000000001
40
0
40
0
40
0
40
1
40
1
40
1
10
-11.661584069139364
20
108.20617367513478
30
-1.7763568394002505e-14
10
-12.439210106737022
20
107.2853057552129
30
-8.8817841970012523e-15
10
-12.439210106737022
20
104.74778820760548
30
-8.8817841970012523e-15
0
LWPOLYLINE
5
148
100
AcDbEntity
8
0
100
AcDbPolyline
90
3
70
1
43
0.0
10
0.06420166312991693
20
35.096521871164441
10
-10.720247914201622
20
38.373295562341809
10
0.064201663129921371
20
41.684601800516248
0
ENDSEC
0
SECTION
2
OBJECTS
0
DICTIONARY
5
C
100
AcDbDictionary
3
ACAD_GROUP
350
D
3
ACAD_MLINESTYLE
350
17
0
DICTIONARY
5
D
100
AcDbDictionary
0
DICTIONARY
5
1A
330
C
100
AcDbDictionary
0
DICTIONARY
5
17
100
AcDbDictionary
0
ENDSEC
0
EOF
